ISO-10303-21;
HEADER;
FILE_DESCRIPTION((''),'2;1');
FILE_NAME('LAY5S-ZS','2024-05-17T',('sipei.wu'),(''),
'PRO/ENGINEER BY PARAMETRIC TECHNOLOGY CORPORATION, 2015440',
'PRO/ENGINEER BY PARAMETRIC TECHNOLOGY CORPORATION, 2015440','');
FILE_SCHEMA(('CONFIG_CONTROL_DESIGN'));
ENDSEC;
DATA;
#1=DIRECTION('',(0.E0,-1.E0,0.E0));
#2=VECTOR('',#1,2.9E1);
#3=CARTESIAN_POINT('',(-1.E1,-9.E0,0.E0));
#4=LINE('',#3,#2);
#5=DIRECTION('',(0.E0,1.E0,0.E0));
#6=VECTOR('',#5,2.9E1);
#7=CARTESIAN_POINT('',(1.E1,-3.8E1,0.E0));
#8=LINE('',#7,#6);
#9=CARTESIAN_POINT('',(0.E0,-3.8E1,0.E0));
#10=DIRECTION('',(0.E0,-1.E0,0.E0));
#11=DIRECTION('',(1.E0,0.E0,0.E0));
#12=AXIS2_PLACEMENT_3D('',#9,#10,#11);
#14=CARTESIAN_POINT('',(0.E0,-3.8E1,0.E0));
#15=DIRECTION('',(0.E0,-1.E0,0.E0));
#16=DIRECTION('',(-1.E0,0.E0,0.E0));
#17=AXIS2_PLACEMENT_3D('',#14,#15,#16);
#19=CARTESIAN_POINT('',(0.E0,-9.E0,0.E0));
#20=DIRECTION('',(0.E0,1.E0,0.E0));
#21=DIRECTION('',(1.E0,0.E0,0.E0));
#22=AXIS2_PLACEMENT_3D('',#19,#20,#21);
#24=CARTESIAN_POINT('',(0.E0,-9.E0,0.E0));
#25=DIRECTION('',(0.E0,1.E0,0.E0));
#26=DIRECTION('',(-1.E0,0.E0,0.E0));
#27=AXIS2_PLACEMENT_3D('',#24,#25,#26);
#29=CARTESIAN_POINT('',(0.E0,-9.E0,0.E0));
#30=DIRECTION('',(0.E0,-1.E0,0.E0));
#31=DIRECTION('',(1.E0,0.E0,0.E0));
#32=AXIS2_PLACEMENT_3D('',#29,#30,#31);
#34=CARTESIAN_POINT('',(0.E0,-9.E0,0.E0));
#35=DIRECTION('',(0.E0,-1.E0,0.E0));
#36=DIRECTION('',(-1.E0,0.E0,0.E0));
#37=AXIS2_PLACEMENT_3D('',#34,#35,#36);
#39=DIRECTION('',(-1.598721155460E-14,-1.E0,4.736975720161E-12));
#40=VECTOR('',#39,1.E0);
#41=CARTESIAN_POINT('',(-1.35E1,-8.E0,-4.735875340804E-12));
#42=LINE('',#41,#40);
#43=CARTESIAN_POINT('',(0.E0,-6.E0,0.E0));
#44=DIRECTION('',(0.E0,1.E0,0.E0));
#45=DIRECTION('',(1.E0,0.E0,3.502639218918E-13));
#46=AXIS2_PLACEMENT_3D('',#43,#44,#45);
#48=CARTESIAN_POINT('',(0.E0,-6.E0,0.E0));
#49=DIRECTION('',(0.E0,1.E0,0.E0));
#50=DIRECTION('',(0.E0,0.E0,-1.E0));
#51=AXIS2_PLACEMENT_3D('',#48,#49,#50);
#53=CARTESIAN_POINT('',(0.E0,-8.E0,0.E0));
#54=DIRECTION('',(0.E0,-1.E0,0.E0));
#55=DIRECTION('',(-1.E0,0.E0,0.E0));
#56=AXIS2_PLACEMENT_3D('',#53,#54,#55);
#58=CARTESIAN_POINT('',(0.E0,-8.E0,0.E0));
#59=DIRECTION('',(0.E0,-1.E0,0.E0));
#60=DIRECTION('',(0.E0,0.E0,-1.E0));
#61=AXIS2_PLACEMENT_3D('',#58,#59,#60);
#63=DIRECTION('',(4.472135955E-1,8.944271909999E-1,2.352586283292E-13));
#64=VECTOR('',#63,2.236067977500E0);
#65=CARTESIAN_POINT('',(1.35E1,-8.E0,7.101732850705E-12));
#66=LINE('',#65,#64);
#67=DIRECTION('',(0.E0,-1.E0,-1.695955128708E-12));
#68=VECTOR('',#67,3.E0);
#69=CARTESIAN_POINT('',(-1.45E1,-3.E0,0.E0));
#70=LINE('',#69,#68);
#71=DIRECTION('',(0.E0,-1.E0,1.413967519218E-12));
#72=VECTOR('',#71,3.E0);
#73=CARTESIAN_POINT('',(1.45E1,-3.E0,3.385884578287E-12));
#74=LINE('',#73,#72);
#75=CARTESIAN_POINT('',(0.E0,-6.E0,0.E0));
#76=DIRECTION('',(0.E0,1.E0,0.E0));
#77=DIRECTION('',(-1.E0,0.E0,0.E0));
#78=AXIS2_PLACEMENT_3D('',#75,#76,#77);
#80=CARTESIAN_POINT('',(0.E0,-6.E0,0.E0));
#81=DIRECTION('',(0.E0,1.E0,0.E0));
#82=DIRECTION('',(0.E0,0.E0,1.E0));
#83=AXIS2_PLACEMENT_3D('',#80,#81,#82);
#85=CARTESIAN_POINT('',(0.E0,-8.E0,0.E0));
#86=DIRECTION('',(0.E0,-1.E0,0.E0));
#87=DIRECTION('',(1.E0,0.E0,3.502639218918E-13));
#88=AXIS2_PLACEMENT_3D('',#85,#86,#87);
#90=CARTESIAN_POINT('',(0.E0,-8.E0,0.E0));
#91=DIRECTION('',(0.E0,-1.E0,0.E0));
#92=DIRECTION('',(0.E0,0.E0,1.E0));
#93=AXIS2_PLACEMENT_3D('',#90,#91,#92);
#95=DIRECTION('',(-4.472135955E-1,8.944271909999E-1,-1.568850251112E-13));
#96=VECTOR('',#95,2.236067977500E0);
#97=CARTESIAN_POINT('',(-1.35E1,-8.E0,-4.735875340804E-12));
#98=LINE('',#97,#96);
#99=DIRECTION('',(1.598721155460E-14,-1.E0,-3.949357553678E-12));
#100=VECTOR('',#99,1.E0);
#101=CARTESIAN_POINT('',(1.35E1,-8.E0,7.101732850705E-12));
#102=LINE('',#101,#100);
#103=CARTESIAN_POINT('',(0.E0,-3.E0,0.E0));
#104=DIRECTION('',(0.E0,-1.E0,0.E0));
#105=DIRECTION('',(1.E0,0.E0,0.E0));
#106=AXIS2_PLACEMENT_3D('',#103,#104,#105);
#108=CARTESIAN_POINT('',(0.E0,-3.E0,0.E0));
#109=DIRECTION('',(0.E0,-1.E0,0.E0));
#110=DIRECTION('',(-1.E0,0.E0,0.E0));
#111=AXIS2_PLACEMENT_3D('',#108,#109,#110);
#113=CARTESIAN_POINT('',(0.E0,-3.E0,0.E0));
#114=DIRECTION('',(0.E0,1.E0,0.E0));
#115=DIRECTION('',(1.E0,0.E0,0.E0));
#116=AXIS2_PLACEMENT_3D('',#113,#114,#115);
#118=CARTESIAN_POINT('',(0.E0,-3.E0,0.E0));
#119=DIRECTION('',(0.E0,1.E0,0.E0));
#120=DIRECTION('',(-1.E0,0.E0,0.E0));
#121=AXIS2_PLACEMENT_3D('',#118,#119,#120);
#123=DIRECTION('',(0.E0,1.E0,0.E0));
#124=VECTOR('',#123,4.E0);
#125=CARTESIAN_POINT('',(-1.E1,-3.E0,0.E0));
#126=LINE('',#125,#124);
#127=DIRECTION('',(0.E0,-1.E0,0.E0));
#128=VECTOR('',#127,4.E0);
#129=CARTESIAN_POINT('',(1.E1,1.E0,0.E0));
#130=LINE('',#129,#128);
#131=CARTESIAN_POINT('',(0.E0,1.E0,0.E0));
#132=DIRECTION('',(0.E0,1.E0,0.E0));
#133=DIRECTION('',(1.E0,0.E0,0.E0));
#134=AXIS2_PLACEMENT_3D('',#131,#132,#133);
#136=CARTESIAN_POINT('',(0.E0,1.E0,0.E0));
#137=DIRECTION('',(0.E0,1.E0,0.E0));
#138=DIRECTION('',(-1.E0,0.E0,0.E0));
#139=AXIS2_PLACEMENT_3D('',#136,#137,#138);
#141=CARTESIAN_POINT('',(0.E0,1.E0,0.E0));
#142=DIRECTION('',(0.E0,-1.E0,0.E0));
#143=DIRECTION('',(-1.E0,0.E0,0.E0));
#144=AXIS2_PLACEMENT_3D('',#141,#142,#143);
#146=CARTESIAN_POINT('',(0.E0,1.25E1,0.E0));
#147=DIRECTION('',(0.E0,1.E0,0.E0));
#148=DIRECTION('',(1.E0,0.E0,0.E0));
#149=AXIS2_PLACEMENT_3D('',#146,#147,#148);
#151=CARTESIAN_POINT('',(0.E0,1.E0,0.E0));
#152=DIRECTION('',(0.E0,-1.E0,0.E0));
#153=DIRECTION('',(1.E0,0.E0,0.E0));
#154=AXIS2_PLACEMENT_3D('',#151,#152,#153);
#156=DIRECTION('',(0.E0,1.E0,0.E0));
#157=VECTOR('',#156,1.15E1);
#158=CARTESIAN_POINT('',(-1.5E1,1.E0,0.E0));
#159=LINE('',#158,#157);
#160=CARTESIAN_POINT('',(0.E0,1.25E1,0.E0));
#161=DIRECTION('',(0.E0,1.E0,0.E0));
#162=DIRECTION('',(-1.E0,0.E0,0.E0));
#163=AXIS2_PLACEMENT_3D('',#160,#161,#162);
#165=DIRECTION('',(0.E0,-1.E0,0.E0));
#166=VECTOR('',#165,1.15E1);
#167=CARTESIAN_POINT('',(1.5E1,1.25E1,0.E0));
#168=LINE('',#167,#166);
#169=CARTESIAN_POINT('',(0.E0,1.4E1,0.E0));
#170=DIRECTION('',(0.E0,1.E0,0.E0));
#171=DIRECTION('',(9.999989535789E-1,0.E0,1.446665479028E-3));
#172=AXIS2_PLACEMENT_3D('',#169,#170,#171);
#174=CARTESIAN_POINT('',(-1.35E1,1.25E1,3.042358032168E-14));
#175=DIRECTION('',(0.E0,0.E0,-1.E0));
#176=DIRECTION('',(-1.E0,0.E0,0.E0));
#177=AXIS2_PLACEMENT_3D('',#174,#175,#176);
#179=CARTESIAN_POINT('',(0.E0,1.4E1,0.E0));
#180=DIRECTION('',(0.E0,-1.E0,0.E0));
#181=DIRECTION('',(-9.999989529701E-1,0.E0,-1.447086314137E-3));
#182=AXIS2_PLACEMENT_3D('',#179,#180,#181);
#184=CARTESIAN_POINT('',(0.E0,1.4E1,0.E0));
#185=DIRECTION('',(0.E0,-1.E0,0.E0));
#186=DIRECTION('',(9.999989535789E-1,0.E0,1.446665479028E-3));
#187=AXIS2_PLACEMENT_3D('',#184,#185,#186);
#189=CARTESIAN_POINT('',(0.E0,1.4E1,0.E0));
#190=DIRECTION('',(0.E0,1.E0,0.E0));
#191=DIRECTION('',(-9.999989529701E-1,0.E0,-1.447086314137E-3));
#192=AXIS2_PLACEMENT_3D('',#189,#190,#191);
#194=CARTESIAN_POINT('',(1.35E1,1.25E1,-3.042358032168E-14));
#195=DIRECTION('',(0.E0,0.E0,1.E0));
#196=DIRECTION('',(1.E0,0.E0,0.E0));
#197=AXIS2_PLACEMENT_3D('',#194,#195,#196);
#199=CARTESIAN_POINT('',(-1.E1,-9.E0,0.E0));
#200=CARTESIAN_POINT('',(1.E1,-9.E0,0.E0));
#201=VERTEX_POINT('',#199);
#202=VERTEX_POINT('',#200);
#203=CARTESIAN_POINT('',(1.35E1,-9.E0,0.E0));
#204=CARTESIAN_POINT('',(-1.35E1,-9.E0,0.E0));
#205=VERTEX_POINT('',#203);
#206=VERTEX_POINT('',#204);
#207=CARTESIAN_POINT('',(-1.35E1,-8.E0,0.E0));
#208=CARTESIAN_POINT('',(0.E0,-8.E0,-1.35E1));
#209=VERTEX_POINT('',#207);
#210=VERTEX_POINT('',#208);
#211=CARTESIAN_POINT('',(1.35E1,-8.E0,4.728562945539E-12));
#212=VERTEX_POINT('',#211);
#213=CARTESIAN_POINT('',(0.E0,-6.E0,-1.45E1));
#214=CARTESIAN_POINT('',(-1.45E1,-6.E0,0.E0));
#215=VERTEX_POINT('',#213);
#216=VERTEX_POINT('',#214);
#217=CARTESIAN_POINT('',(1.45E1,-6.E0,5.078826867431E-12));
#218=VERTEX_POINT('',#217);
#219=CARTESIAN_POINT('',(1.45E1,-3.E0,3.385884578287E-12));
#220=VERTEX_POINT('',#219);
#221=CARTESIAN_POINT('',(-1.45E1,-3.E0,0.E0));
#222=VERTEX_POINT('',#221);
#223=CARTESIAN_POINT('',(0.E0,-6.E0,1.45E1));
#224=VERTEX_POINT('',#223);
#225=CARTESIAN_POINT('',(0.E0,-8.E0,1.35E1));
#226=VERTEX_POINT('',#225);
#227=CARTESIAN_POINT('',(1.E1,-3.E0,0.E0));
#228=CARTESIAN_POINT('',(-1.E1,-3.E0,0.E0));
#229=VERTEX_POINT('',#227);
#230=VERTEX_POINT('',#228);
#231=CARTESIAN_POINT('',(1.349998587332E1,1.4E1,1.952998396688E-2));
#232=CARTESIAN_POINT('',(-1.349999999988E1,1.4E1,5.605222752956E-5));
#233=VERTEX_POINT('',#231);
#234=VERTEX_POINT('',#232);
#235=CARTESIAN_POINT('',(1.349999999991E1,1.4E1,-5.030328060403E-5));
#236=VERTEX_POINT('',#235);
#237=CARTESIAN_POINT('',(1.5E1,1.25E1,-3.380368901462E-14));
#238=VERTEX_POINT('',#237);
#239=CARTESIAN_POINT('',(-1.5E1,1.25E1,3.380368901462E-14));
#240=VERTEX_POINT('',#239);
#241=CARTESIAN_POINT('',(-1.349998586510E1,1.4E1,-1.953566524085E-2));
#242=VERTEX_POINT('',#241);
#243=CARTESIAN_POINT('',(1.E1,-3.8E1,0.E0));
#244=CARTESIAN_POINT('',(-1.E1,-3.8E1,0.E0));
#245=VERTEX_POINT('',#243);
#246=VERTEX_POINT('',#244);
#247=CARTESIAN_POINT('',(1.E1,1.E0,0.E0));
#248=CARTESIAN_POINT('',(-1.E1,1.E0,0.E0));
#249=VERTEX_POINT('',#247);
#250=VERTEX_POINT('',#248);
#251=CARTESIAN_POINT('',(-1.5E1,1.E0,0.E0));
#252=CARTESIAN_POINT('',(1.5E1,1.E0,0.E0));
#253=VERTEX_POINT('',#251);
#254=VERTEX_POINT('',#252);
#255=CARTESIAN_POINT('',(0.E0,1.65E1,0.E0));
#256=DIRECTION('',(0.E0,-1.E0,0.E0));
#257=DIRECTION('',(-1.E0,0.E0,0.E0));
#258=AXIS2_PLACEMENT_3D('',#255,#256,#257);
#259=CYLINDRICAL_SURFACE('',#258,1.E1);
#261=ORIENTED_EDGE('',*,*,#260,.T.);
#263=ORIENTED_EDGE('',*,*,#262,.T.);
#265=ORIENTED_EDGE('',*,*,#264,.T.);
#267=ORIENTED_EDGE('',*,*,#266,.F.);
#268=EDGE_LOOP('',(#261,#263,#265,#267));
#269=FACE_OUTER_BOUND('',#268,.F.);
#270=ADVANCED_FACE('',(#269),#259,.T.);
#271=CARTESIAN_POINT('',(0.E0,1.65E1,0.E0));
#272=DIRECTION('',(0.E0,-1.E0,0.E0));
#273=DIRECTION('',(-1.E0,0.E0,0.E0));
#274=AXIS2_PLACEMENT_3D('',#271,#272,#273);
#275=CYLINDRICAL_SURFACE('',#274,1.E1);
#276=ORIENTED_EDGE('',*,*,#264,.F.);
#278=ORIENTED_EDGE('',*,*,#277,.T.);
#279=ORIENTED_EDGE('',*,*,#260,.F.);
#281=ORIENTED_EDGE('',*,*,#280,.F.);
#282=EDGE_LOOP('',(#276,#278,#279,#281));
#283=FACE_OUTER_BOUND('',#282,.F.);
#284=ADVANCED_FACE('',(#283),#275,.T.);
#285=CARTESIAN_POINT('',(0.E0,-3.8E1,0.E0));
#286=DIRECTION('',(0.E0,-1.E0,0.E0));
#287=DIRECTION('',(1.E0,0.E0,0.E0));
#288=AXIS2_PLACEMENT_3D('',#285,#286,#287);
#289=PLANE('',#288);
#290=ORIENTED_EDGE('',*,*,#277,.F.);
#291=ORIENTED_EDGE('',*,*,#262,.F.);
#292=EDGE_LOOP('',(#290,#291));
#293=FACE_OUTER_BOUND('',#292,.F.);
#294=ADVANCED_FACE('',(#293),#289,.T.);
#295=CARTESIAN_POINT('',(0.E0,-9.E0,0.E0));
#296=DIRECTION('',(0.E0,-1.E0,0.E0));
#297=DIRECTION('',(-1.E0,0.E0,0.E0));
#298=AXIS2_PLACEMENT_3D('',#295,#296,#297);
#299=PLANE('',#298);
#301=ORIENTED_EDGE('',*,*,#300,.T.);
#303=ORIENTED_EDGE('',*,*,#302,.T.);
#304=EDGE_LOOP('',(#301,#303));
#305=FACE_OUTER_BOUND('',#304,.F.);
#306=ORIENTED_EDGE('',*,*,#280,.T.);
#307=ORIENTED_EDGE('',*,*,#266,.T.);
#308=EDGE_LOOP('',(#306,#307));
#309=FACE_BOUND('',#308,.F.);
#310=ADVANCED_FACE('',(#305,#309),#299,.T.);
#311=CARTESIAN_POINT('',(0.E0,1.65E1,0.E0));
#312=DIRECTION('',(0.E0,-1.E0,0.E0));
#313=DIRECTION('',(-1.E0,0.E0,0.E0));
#314=AXIS2_PLACEMENT_3D('',#311,#312,#313);
#315=CYLINDRICAL_SURFACE('',#314,1.35E1);
#317=ORIENTED_EDGE('',*,*,#316,.F.);
#319=ORIENTED_EDGE('',*,*,#318,.F.);
#321=ORIENTED_EDGE('',*,*,#320,.T.);
#322=ORIENTED_EDGE('',*,*,#300,.F.);
#324=ORIENTED_EDGE('',*,*,#323,.F.);
#325=EDGE_LOOP('',(#317,#319,#321,#322,#324));
#326=FACE_OUTER_BOUND('',#325,.F.);
#327=ADVANCED_FACE('',(#326),#315,.T.);
#328=CARTESIAN_POINT('',(0.E0,-7.E0,0.E0));
#329=DIRECTION('',(0.E0,1.E0,0.E0));
#330=DIRECTION('',(0.E0,0.E0,-1.E0));
#331=AXIS2_PLACEMENT_3D('',#328,#329,#330);
#332=CONICAL_SURFACE('',#331,1.4E1,2.656505117708E1);
#334=ORIENTED_EDGE('',*,*,#333,.T.);
#336=ORIENTED_EDGE('',*,*,#335,.T.);
#338=ORIENTED_EDGE('',*,*,#337,.F.);
#339=ORIENTED_EDGE('',*,*,#318,.T.);
#340=ORIENTED_EDGE('',*,*,#316,.T.);
#342=ORIENTED_EDGE('',*,*,#341,.T.);
#343=EDGE_LOOP('',(#334,#336,#338,#339,#340,#342));
#344=FACE_OUTER_BOUND('',#343,.F.);
#345=ADVANCED_FACE('',(#344),#332,.T.);
#346=CARTESIAN_POINT('',(0.E0,1.65E1,0.E0));
#347=DIRECTION('',(0.E0,-1.E0,0.E0));
#348=DIRECTION('',(-1.E0,0.E0,0.E0));
#349=AXIS2_PLACEMENT_3D('',#346,#347,#348);
#350=CYLINDRICAL_SURFACE('',#349,1.45E1);
#351=ORIENTED_EDGE('',*,*,#335,.F.);
#352=ORIENTED_EDGE('',*,*,#333,.F.);
#354=ORIENTED_EDGE('',*,*,#353,.F.);
#356=ORIENTED_EDGE('',*,*,#355,.F.);
#358=ORIENTED_EDGE('',*,*,#357,.T.);
#359=EDGE_LOOP('',(#351,#352,#354,#356,#358));
#360=FACE_OUTER_BOUND('',#359,.F.);
#361=ADVANCED_FACE('',(#360),#350,.T.);
#362=CARTESIAN_POINT('',(0.E0,1.65E1,0.E0));
#363=DIRECTION('',(0.E0,-1.E0,0.E0));
#364=DIRECTION('',(-1.E0,0.E0,0.E0));
#365=AXIS2_PLACEMENT_3D('',#362,#363,#364);
#366=CYLINDRICAL_SURFACE('',#365,1.45E1);
#368=ORIENTED_EDGE('',*,*,#367,.F.);
#370=ORIENTED_EDGE('',*,*,#369,.F.);
#371=ORIENTED_EDGE('',*,*,#357,.F.);
#373=ORIENTED_EDGE('',*,*,#372,.F.);
#374=ORIENTED_EDGE('',*,*,#353,.T.);
#375=EDGE_LOOP('',(#368,#370,#371,#373,#374));
#376=FACE_OUTER_BOUND('',#375,.F.);
#377=ADVANCED_FACE('',(#376),#366,.T.);
#378=CARTESIAN_POINT('',(0.E0,-7.E0,0.E0));
#379=DIRECTION('',(0.E0,1.E0,0.E0));
#380=DIRECTION('',(0.E0,0.E0,-1.E0));
#381=AXIS2_PLACEMENT_3D('',#378,#379,#380);
#382=CONICAL_SURFACE('',#381,1.4E1,2.656505117708E1);
#383=ORIENTED_EDGE('',*,*,#369,.T.);
#384=ORIENTED_EDGE('',*,*,#367,.T.);
#385=ORIENTED_EDGE('',*,*,#341,.F.);
#387=ORIENTED_EDGE('',*,*,#386,.T.);
#389=ORIENTED_EDGE('',*,*,#388,.T.);
#390=ORIENTED_EDGE('',*,*,#337,.T.);
#391=EDGE_LOOP('',(#383,#384,#385,#387,#389,#390));
#392=FACE_OUTER_BOUND('',#391,.F.);
#393=ADVANCED_FACE('',(#392),#382,.T.);
#394=CARTESIAN_POINT('',(0.E0,1.65E1,0.E0));
#395=DIRECTION('',(0.E0,-1.E0,0.E0));
#396=DIRECTION('',(-1.E0,0.E0,0.E0));
#397=AXIS2_PLACEMENT_3D('',#394,#395,#396);
#398=CYLINDRICAL_SURFACE('',#397,1.35E1);
#399=ORIENTED_EDGE('',*,*,#388,.F.);
#400=ORIENTED_EDGE('',*,*,#386,.F.);
#401=ORIENTED_EDGE('',*,*,#323,.T.);
#402=ORIENTED_EDGE('',*,*,#302,.F.);
#403=ORIENTED_EDGE('',*,*,#320,.F.);
#404=EDGE_LOOP('',(#399,#400,#401,#402,#403));
#405=FACE_OUTER_BOUND('',#404,.F.);
#406=ADVANCED_FACE('',(#405),#398,.T.);
#407=CARTESIAN_POINT('',(0.E0,-3.E0,0.E0));
#408=DIRECTION('',(0.E0,-1.E0,0.E0));
#409=DIRECTION('',(-1.E0,0.E0,0.E0));
#410=AXIS2_PLACEMENT_3D('',#407,#408,#409);
#411=PLANE('',#410);
#412=ORIENTED_EDGE('',*,*,#372,.T.);
#413=ORIENTED_EDGE('',*,*,#355,.T.);
#414=EDGE_LOOP('',(#412,#413));
#415=FACE_OUTER_BOUND('',#414,.F.);
#417=ORIENTED_EDGE('',*,*,#416,.T.);
#419=ORIENTED_EDGE('',*,*,#418,.T.);
#420=EDGE_LOOP('',(#417,#419));
#421=FACE_BOUND('',#420,.F.);
#422=ADVANCED_FACE('',(#415,#421),#411,.F.);
#423=CARTESIAN_POINT('',(0.E0,1.65E1,0.E0));
#424=DIRECTION('',(0.E0,-1.E0,0.E0));
#425=DIRECTION('',(-1.E0,0.E0,0.E0));
#426=AXIS2_PLACEMENT_3D('',#423,#424,#425);
#427=CYLINDRICAL_SURFACE('',#426,1.E1);
#429=ORIENTED_EDGE('',*,*,#428,.F.);
#431=ORIENTED_EDGE('',*,*,#430,.T.);
#433=ORIENTED_EDGE('',*,*,#432,.F.);
#434=ORIENTED_EDGE('',*,*,#416,.F.);
#435=EDGE_LOOP('',(#429,#431,#433,#434));
#436=FACE_OUTER_BOUND('',#435,.F.);
#437=ADVANCED_FACE('',(#436),#427,.T.);
#438=CARTESIAN_POINT('',(0.E0,1.65E1,0.E0));
#439=DIRECTION('',(0.E0,-1.E0,0.E0));
#440=DIRECTION('',(-1.E0,0.E0,0.E0));
#441=AXIS2_PLACEMENT_3D('',#438,#439,#440);
#442=CYLINDRICAL_SURFACE('',#441,1.E1);
#443=ORIENTED_EDGE('',*,*,#432,.T.);
#445=ORIENTED_EDGE('',*,*,#444,.T.);
#446=ORIENTED_EDGE('',*,*,#428,.T.);
#447=ORIENTED_EDGE('',*,*,#418,.F.);
#448=EDGE_LOOP('',(#443,#445,#446,#447));
#449=FACE_OUTER_BOUND('',#448,.F.);
#450=ADVANCED_FACE('',(#449),#442,.T.);
#451=CARTESIAN_POINT('',(0.E0,1.E0,0.E0));
#452=DIRECTION('',(0.E0,-1.E0,0.E0));
#453=DIRECTION('',(1.E0,0.E0,0.E0));
#454=AXIS2_PLACEMENT_3D('',#451,#452,#453);
#455=PLANE('',#454);
#457=ORIENTED_EDGE('',*,*,#456,.F.);
#459=ORIENTED_EDGE('',*,*,#458,.F.);
#460=EDGE_LOOP('',(#457,#459));
#461=FACE_OUTER_BOUND('',#460,.F.);
#462=ORIENTED_EDGE('',*,*,#430,.F.);
#463=ORIENTED_EDGE('',*,*,#444,.F.);
#464=EDGE_LOOP('',(#462,#463));
#465=FACE_BOUND('',#464,.F.);
#466=ADVANCED_FACE('',(#461,#465),#455,.T.);
#467=CARTESIAN_POINT('',(0.E0,1.65E1,0.E0));
#468=DIRECTION('',(0.E0,-1.E0,0.E0));
#469=DIRECTION('',(-1.E0,0.E0,0.E0));
#470=AXIS2_PLACEMENT_3D('',#467,#468,#469);
#471=CYLINDRICAL_SURFACE('',#470,1.5E1);
#472=ORIENTED_EDGE('',*,*,#456,.T.);
#474=ORIENTED_EDGE('',*,*,#473,.F.);
#476=ORIENTED_EDGE('',*,*,#475,.T.);
#478=ORIENTED_EDGE('',*,*,#477,.F.);
#479=EDGE_LOOP('',(#472,#474,#476,#478));
#480=FACE_OUTER_BOUND('',#479,.F.);
#481=ADVANCED_FACE('',(#480),#471,.T.);
#482=CARTESIAN_POINT('',(0.E0,1.65E1,0.E0));
#483=DIRECTION('',(0.E0,-1.E0,0.E0));
#484=DIRECTION('',(-1.E0,0.E0,0.E0));
#485=AXIS2_PLACEMENT_3D('',#482,#483,#484);
#486=CYLINDRICAL_SURFACE('',#485,1.5E1);
#487=ORIENTED_EDGE('',*,*,#458,.T.);
#488=ORIENTED_EDGE('',*,*,#477,.T.);
#490=ORIENTED_EDGE('',*,*,#489,.T.);
#491=ORIENTED_EDGE('',*,*,#473,.T.);
#492=EDGE_LOOP('',(#487,#488,#490,#491));
#493=FACE_OUTER_BOUND('',#492,.F.);
#494=ADVANCED_FACE('',(#493),#486,.T.);
#495=CARTESIAN_POINT('',(0.E0,1.25E1,0.E0));
#496=DIRECTION('',(0.E0,-1.E0,0.E0));
#497=DIRECTION('',(-9.999989396827E-1,0.E0,-1.456239485308E-3));
#498=AXIS2_PLACEMENT_3D('',#495,#496,#497);
#499=TOROIDAL_SURFACE('',#498,1.35E1,1.5E0);
#501=ORIENTED_EDGE('',*,*,#500,.F.);
#503=ORIENTED_EDGE('',*,*,#502,.T.);
#505=ORIENTED_EDGE('',*,*,#504,.F.);
#506=ORIENTED_EDGE('',*,*,#489,.F.);
#508=ORIENTED_EDGE('',*,*,#507,.T.);
#509=EDGE_LOOP('',(#501,#503,#505,#506,#508));
#510=FACE_OUTER_BOUND('',#509,.F.);
#511=ADVANCED_FACE('',(#510),#499,.T.);
#512=CARTESIAN_POINT('',(0.E0,1.4E1,0.E0));
#513=DIRECTION('',(0.E0,-1.E0,0.E0));
#514=DIRECTION('',(-1.E0,0.E0,0.E0));
#515=AXIS2_PLACEMENT_3D('',#512,#513,#514);
#516=PLANE('',#515);
#518=ORIENTED_EDGE('',*,*,#517,.F.);
#520=ORIENTED_EDGE('',*,*,#519,.T.);
#521=ORIENTED_EDGE('',*,*,#502,.F.);
#522=ORIENTED_EDGE('',*,*,#500,.T.);
#523=EDGE_LOOP('',(#518,#520,#521,#522));
#524=FACE_OUTER_BOUND('',#523,.F.);
#525=ADVANCED_FACE('',(#524),#516,.F.);
#526=CARTESIAN_POINT('',(0.E0,1.25E1,0.E0));
#527=DIRECTION('',(0.E0,-1.E0,0.E0));
#528=DIRECTION('',(9.999989396827E-1,0.E0,1.456239485308E-3));
#529=AXIS2_PLACEMENT_3D('',#526,#527,#528);
#530=TOROIDAL_SURFACE('',#529,1.35E1,1.5E0);
#531=ORIENTED_EDGE('',*,*,#519,.F.);
#532=ORIENTED_EDGE('',*,*,#517,.T.);
#533=ORIENTED_EDGE('',*,*,#507,.F.);
#534=ORIENTED_EDGE('',*,*,#475,.F.);
#535=ORIENTED_EDGE('',*,*,#504,.T.);
#536=EDGE_LOOP('',(#531,#532,#533,#534,#535));
#537=FACE_OUTER_BOUND('',#536,.F.);
#538=ADVANCED_FACE('',(#537),#530,.T.);
#539=CLOSED_SHELL('',(#270,#284,#294,#310,#327,#345,#361,#377,#393,#406,#422,
#437,#450,#466,#481,#494,#511,#525,#538));
#540=MANIFOLD_SOLID_BREP('',#539);
#542=DIMENSIONAL_EXPONENTS(0.E0,0.E0,0.E0,0.E0,0.E0,0.E0,0.E0);
#544=PLANE_ANGLE_MEASURE_WITH_UNIT(PLANE_ANGLE_MEASURE(1.745329251994E-2),#543);
#545=(CONVERSION_BASED_UNIT('DEGREE',#544)NAMED_UNIT(*)PLANE_ANGLE_UNIT());
#547=UNCERTAINTY_MEASURE_WITH_UNIT(LENGTH_MEASURE(6.712021089339E-3),#541,
'closure',
'Maximum model space distance between geometric entities at asserted connectivities');
#548=(GEOMETRIC_REPRESENTATION_CONTEXT(3)GLOBAL_UNCERTAINTY_ASSIGNED_CONTEXT((
#547))GLOBAL_UNIT_ASSIGNED_CONTEXT((#541,#545,#546))REPRESENTATION_CONTEXT
('ID1','3'));
#550=APPLICATION_CONTEXT(
'CONFIGURATION CONTROLLED 3D DESIGNS OF MECHANICAL PARTS AND ASSEMBLIES');
#551=APPLICATION_PROTOCOL_DEFINITION('international standard',
'config_control_design',1994,#550);
#552=DESIGN_CONTEXT('',#550,'design');
#553=MECHANICAL_CONTEXT('',#550,'mechanical');
#554=PRODUCT('LAY5S-ZS','LAY5S-ZS','NOT SPECIFIED',(#553));
#555=PRODUCT_DEFINITION_FORMATION_WITH_SPECIFIED_SOURCE('1','LAST_VERSION',#554,
.MADE.);
#559=PRODUCT_CATEGORY('part','');
#560=PRODUCT_RELATED_PRODUCT_CATEGORY('detail','',(#554));
#561=PRODUCT_CATEGORY_RELATIONSHIP('','',#559,#560);
#562=SECURITY_CLASSIFICATION_LEVEL('unclassified');
#563=SECURITY_CLASSIFICATION('','',#562);
#564=CC_DESIGN_SECURITY_CLASSIFICATION(#563,(#555));
#565=APPROVAL_STATUS('approved');
#566=APPROVAL(#565,'');
#567=CC_DESIGN_APPROVAL(#566,(#563,#555,#556));
#568=CALENDAR_DATE(124,17,5);
#569=COORDINATED_UNIVERSAL_TIME_OFFSET(8,0,.AHEAD.);
#570=LOCAL_TIME(16,48,5.5E1,#569);
#571=DATE_AND_TIME(#568,#570);
#572=APPROVAL_DATE_TIME(#571,#566);
#573=DATE_TIME_ROLE('creation_date');
#574=CC_DESIGN_DATE_AND_TIME_ASSIGNMENT(#571,#573,(#556));
#575=DATE_TIME_ROLE('classification_date');
#576=CC_DESIGN_DATE_AND_TIME_ASSIGNMENT(#571,#575,(#563));
#577=PERSON('UNSPECIFIED','UNSPECIFIED',$,$,$,$);
#578=ORGANIZATION('UNSPECIFIED','UNSPECIFIED','UNSPECIFIED');
#579=PERSON_AND_ORGANIZATION(#577,#578);
#580=APPROVAL_ROLE('approver');
#581=APPROVAL_PERSON_ORGANIZATION(#579,#566,#580);
#582=PERSON_AND_ORGANIZATION_ROLE('creator');
#583=CC_DESIGN_PERSON_AND_ORGANIZATION_ASSIGNMENT(#579,#582,(#555,#556));
#584=PERSON_AND_ORGANIZATION_ROLE('design_supplier');
#585=CC_DESIGN_PERSON_AND_ORGANIZATION_ASSIGNMENT(#579,#584,(#555));
#586=PERSON_AND_ORGANIZATION_ROLE('classification_officer');
#587=CC_DESIGN_PERSON_AND_ORGANIZATION_ASSIGNMENT(#579,#586,(#563));
#588=PERSON_AND_ORGANIZATION_ROLE('design_owner');
#589=CC_DESIGN_PERSON_AND_ORGANIZATION_ASSIGNMENT(#579,#588,(#554));
#13=CIRCLE('',#12,1.E1);
#18=CIRCLE('',#17,1.E1);
#23=CIRCLE('',#22,1.35E1);
#28=CIRCLE('',#27,1.35E1);
#33=CIRCLE('',#32,1.E1);
#38=CIRCLE('',#37,1.E1);
#47=CIRCLE('',#46,1.45E1);
#52=CIRCLE('',#51,1.45E1);
#57=CIRCLE('',#56,1.35E1);
#62=CIRCLE('',#61,1.35E1);
#79=CIRCLE('',#78,1.45E1);
#84=CIRCLE('',#83,1.45E1);
#89=CIRCLE('',#88,1.35E1);
#94=CIRCLE('',#93,1.35E1);
#107=CIRCLE('',#106,1.45E1);
#112=CIRCLE('',#111,1.45E1);
#117=CIRCLE('',#116,1.E1);
#122=CIRCLE('',#121,1.E1);
#135=CIRCLE('',#134,1.E1);
#140=CIRCLE('',#139,1.E1);
#145=CIRCLE('',#144,1.5E1);
#150=CIRCLE('',#149,1.5E1);
#155=CIRCLE('',#154,1.5E1);
#164=CIRCLE('',#163,1.5E1);
#173=CIRCLE('',#172,1.35E1);
#178=CIRCLE('',#177,1.5E0);
#183=CIRCLE('',#182,1.35E1);
#188=CIRCLE('',#187,1.35E1);
#193=CIRCLE('',#192,1.35E1);
#198=CIRCLE('',#197,1.5E0);
#260=EDGE_CURVE('',#201,#246,#4,.T.);
#262=EDGE_CURVE('',#246,#245,#18,.T.);
#264=EDGE_CURVE('',#245,#202,#8,.T.);
#266=EDGE_CURVE('',#201,#202,#38,.T.);
#277=EDGE_CURVE('',#245,#246,#13,.T.);
#280=EDGE_CURVE('',#202,#201,#33,.T.);
#300=EDGE_CURVE('',#205,#206,#23,.T.);
#302=EDGE_CURVE('',#206,#205,#28,.T.);
#316=EDGE_CURVE('',#210,#212,#62,.T.);
#318=EDGE_CURVE('',#209,#210,#57,.T.);
#320=EDGE_CURVE('',#209,#206,#42,.T.);
#323=EDGE_CURVE('',#212,#205,#102,.T.);
#333=EDGE_CURVE('',#218,#215,#47,.T.);
#335=EDGE_CURVE('',#215,#216,#52,.T.);
#337=EDGE_CURVE('',#209,#216,#98,.T.);
#341=EDGE_CURVE('',#212,#218,#66,.T.);
#353=EDGE_CURVE('',#220,#218,#74,.T.);
#355=EDGE_CURVE('',#222,#220,#112,.T.);
#357=EDGE_CURVE('',#222,#216,#70,.T.);
#367=EDGE_CURVE('',#224,#218,#84,.T.);
#369=EDGE_CURVE('',#216,#224,#79,.T.);
#372=EDGE_CURVE('',#220,#222,#107,.T.);
#386=EDGE_CURVE('',#212,#226,#89,.T.);
#388=EDGE_CURVE('',#226,#209,#94,.T.);
#416=EDGE_CURVE('',#229,#230,#117,.T.);
#418=EDGE_CURVE('',#230,#229,#122,.T.);
#428=EDGE_CURVE('',#249,#229,#130,.T.);
#430=EDGE_CURVE('',#249,#250,#135,.T.);
#432=EDGE_CURVE('',#230,#250,#126,.T.);
#444=EDGE_CURVE('',#250,#249,#140,.T.);
#456=EDGE_CURVE('',#253,#254,#145,.T.);
#458=EDGE_CURVE('',#254,#253,#155,.T.);
#473=EDGE_CURVE('',#238,#254,#168,.T.);
#475=EDGE_CURVE('',#238,#240,#150,.T.);
#477=EDGE_CURVE('',#253,#240,#159,.T.);
#489=EDGE_CURVE('',#240,#238,#164,.T.);
#500=EDGE_CURVE('',#233,#234,#188,.T.);
#502=EDGE_CURVE('',#233,#236,#173,.T.);
#504=EDGE_CURVE('',#238,#236,#198,.T.);
#507=EDGE_CURVE('',#240,#234,#178,.T.);
#517=EDGE_CURVE('',#242,#234,#193,.T.);
#519=EDGE_CURVE('',#242,#236,#183,.T.);
#541=(LENGTH_UNIT()NAMED_UNIT(*)SI_UNIT(.MILLI.,.METRE.));
#543=(NAMED_UNIT(*)PLANE_ANGLE_UNIT()SI_UNIT($,.RADIAN.));
#546=(NAMED_UNIT(*)SI_UNIT($,.STERADIAN.)SOLID_ANGLE_UNIT());
#549=ADVANCED_BREP_SHAPE_REPRESENTATION('',(#540),#548);
#556=PRODUCT_DEFINITION('design','',#555,#552);
#557=PRODUCT_DEFINITION_SHAPE('','SHAPE FOR LAY5S-ZS.',#556);
#558=SHAPE_DEFINITION_REPRESENTATION(#557,#549);
ENDSEC;
END-ISO-10303-21;
